Make your own free website on Tripod.com

acdcvaults22.jpg

Highway to Hell

   Intro/Verse
e|--------------------------------------------------|
B|-2--2--2-----3-3-3------3-3-3-----3-3-3---3---2-2-|
G|-2--2--2-----2-2-0------2-2-0-----2-2-0---2---2-2-|
D|-2--2--2-----0-0-0------0-0-0-----0-0-0---0---2-2-|
A|-0--0--0-----0-0--------0-0-------0-0-----0---0-0-|
E|--------------------------------------------------|
  Pre-Chorus
e|--------------------------------------------------|
B|-2--2--2--2--2--2--2------------------------------|
G|-2--2--2--2--2--2--2------------------------------|
D|-2--2--2--2--2--2--2------------------------------|
A|-0--0--0--0--0--0--0------------------------------|
E|--------------------------------------------------|
 
 Chorus
 
e|--------------------3-----------------------------|
B|-2--2----3--3-3--3--3--3----2-2---3--let-Ring-----|
G|-2--2----2--2-2--2--0--2----2-2---2--Let-Ring-----|
D|-2--2----0--0-0-----0--0----2-2---0--Let-Ring-----|
A|-0--0--0--------------------0-0-0----Let-Ring-----|
E|--------------------------------------------------|
 
  Verse
e|--------------------------------------------------|
B|-2--2--2-----3-3-3------3-3-3-----3-3-3---3---2-2-|
G|-2--2--2-----2-2-0------2-2-0-----2-2-0---2---2-2-|
D|-2--2--2-----0-0-0------0-0-0-----0-0-0---0---2-2-|
A|-0--0--0-----0-0--------0-0-------0-0-----0---0-0-|
E|--------------------------------------------------|
  Pre-Chorus
e|--------------------------------------------------|
B|-2--2--2--2--2--2--2------------------------------|
G|-2--2--2--2--2--2--2------------------------------|
D|-2--2--2--2--2--2--2------------------------------|
A|-0--0--0--0--0--0--0------------------------------|
E|--------------------------------------------------|
 
 Chorus
 
e|--------------------3-----------------------------|
B|-2--2----3--3-3--3--3--3----2-2---3--let-Ring-----|
G|-2--2----2--2-2--2--0--2----2-2---2--Let-Ring-----|
D|-2--2----0--0-0-----0--0----2-2---0--Let-Ring-----|
A|-0--0--0--------------------0-0-0----Let-Ring-----|
E|--------------------------------------------------|
 
 
(Solo)
(Chorus)
 
                     END