Make your own free website on Tripod.com

acdcvaults22.jpg

Rock and Roll ain't Noise Pollution

                 Intro and Chorus

E|-----------------------------------|----------------------------|
B|--0--2--3--2--2--3-----------------|---0--2--3--2-2-------------|

G|--1--2--4--2--2--4-----------------|---1--2--4--2-2--------9----|
D|--------------------------------2--|-----------------------9----|
A|-----------0--0--0--------------2--|------------0-0--------7----|
E|-----------------------------3--0--|-----------------3----------|

 

E|-----------------------------------|----------------------------|

B|--0--2--3--2--2--3-----------------|---0--2--3--2-2-------------|

G|--1--2--4--2--2--4-----------------|---1--2--4--2-2-------------|

D|--------------------------------2--|-----------------------2----|

A|-----------0--0--0--------------2--|------------0-0--------2----|

E|-----------------------------3--0--|--------------------3--0----| 

                             

 

                                   Verses 1 & 2

E|----------------------------------------------------------------|

B|----------------------------------------------------------------|

G|----------------------------------------------------------------|

D|----------2-2-4-2-4\5--------------2-2-4-2-4\5------------------|

A|--2-4-2---0-0-0-0-0------2-4-2-----0-0-0-0-0--------------------|

E|--0-0-0-3----------------0-0-0-3--------------------------------|

 

E|----------------------------------------------------------------|

B|----------------------------------------------------------------|

G|----------------------------------------------------------------|

D|----------2-2-4-2-4\5--------------2-2-4-2-4\5------------------|

A|--2-4-2---0-0-0-0-0------2-4-2-----0-0-0-0-0--------------------|

E|--0-0-0-3----------------0-0-0-3--------------------------------|

 

Pre-Chorus

 

E|----------------------------------------------------------------|

B|----------------------------------------------------------------|

G|-9---7----4-------9---7---x--4-4-4-4-4-4-4-4--x-x---------------|

D|-9---7----4-------9---7---x--4-4-4-4-4-4-4-4--x-x---------------|

A|-7---5----2--7----7---5---x--2-2-2-2-2-2-2-2--x-x---------------|

E|-------------0----------------------------------------- --------|

 

(Chorus)

 

SOLO Coming Soon